ISO-10303-21;
HEADER;
FILE_DESCRIPTION(('FreeCAD Model'),'2;1');
FILE_NAME(
'C:/Users/larraguetajunior/Dropbox/sito/blog/documenti/up11 CFD pipe/to 
attach/tubo1mREV.stp','2013-10-01T11:42:03',('FreeCAD'),('FreeCAD'),
  'Open CASCADE STEP processor 6.3','FreeCAD','Unknown');
FILE_SCHEMA(('AUTOMOTIVE_DESIGN_CC2 { 1 2 10303 214 -1 1 5 4 }'));
ENDSEC;
DATA;
#1 = APPLICATION_PROTOCOL_DEFINITION('committee draft',
  'automotive_design',1997,#2);
#2 = APPLICATION_CONTEXT(
  'core data for automotive mechanical design processes');
#3 = SHAPE_DEFINITION_REPRESENTATION(#4,#10);
#4 = PRODUCT_DEFINITION_SHAPE('','',#5);
#5 = PRODUCT_DEFINITION('design','',#6,#9);
#6 = PRODUCT_DEFINITION_FORMATION('','',#7);
#7 = PRODUCT('tubo1m','tubo1m','',(#8));
#8 = MECHANICAL_CONTEXT('',#2,'mechanical');
#9 = PRODUCT_DEFINITION_CONTEXT('part definition',#2,'design');
#10 = ADVANCED_BREP_SHAPE_REPRESENTATION('',(#11,#15),#114);
#11 = AXIS2_PLACEMENT_3D('',#12,#13,#14);
#12 = CARTESIAN_POINT('',(0.E+000,0.E+000,0.E+000));
#13 = DIRECTION('',(0.E+000,0.E+000,1.));
#14 = DIRECTION('',(1.,0.E+000,-0.E+000));
#15 = MANIFOLD_SOLID_BREP('',#16);
#16 = CLOSED_SHELL('',(#17,#57,#110));
#17 = ADVANCED_FACE('',(#18),#31,.T.);
#18 = FACE_BOUND('',#19,.T.);
#19 = EDGE_LOOP('',(#20));
#20 = ORIENTED_EDGE('',*,*,#21,.F.);
#21 = EDGE_CURVE('',#22,#22,#24,.T.);
#22 = VERTEX_POINT('',#23);
#23 = CARTESIAN_POINT('',(1.,0.E+000,5.E-002));
#24 = SURFACE_CURVE('',#25,(#30,#46),.PCURVE_S1.);
#25 = CIRCLE('',#26,5.E-002);
#26 = AXIS2_PLACEMENT_3D('',#27,#28,#29);
#27 = CARTESIAN_POINT('',(1.,0.E+000,0.E+000));
#28 = DIRECTION('',(-1.,0.E+000,0.E+000));
#29 = DIRECTION('',(0.E+000,0.E+000,1.));
#30 = PCURVE('',#31,#36);
#31 = PLANE('',#32);
#32 = AXIS2_PLACEMENT_3D('',#33,#34,#35);
#33 = CARTESIAN_POINT('',(1.,0.E+000,5.E-002));
#34 = DIRECTION('',(1.,0.E+000,0.E+000));
#35 = DIRECTION('',(0.E+000,0.E+000,-1.));
#36 = DEFINITIONAL_REPRESENTATION('',(#37),#45);
#37 = ( BOUNDED_CURVE() B_SPLINE_CURVE(2,(#38,#39,#40,#41,#42,#43,#44),
.UNSPECIFIED.,.F.,.F.) B_SPLINE_CURVE_WITH_KNOTS((1,2,2,2,2,1),(
    -2.094395102393,0.E+000,2.094395102393,4.188790204786,6.28318530718,
8.377580409573),.UNSPECIFIED.) CURVE() GEOMETRIC_REPRESENTATION_ITEM() 
RATIONAL_B_SPLINE_CURVE((1.,0.5,1.,0.5,1.,0.5,1.)) REPRESENTATION_ITEM(
  '') );
#38 = CARTESIAN_POINT('',(0.E+000,0.E+000));
#39 = CARTESIAN_POINT('',(0.E+000,8.660254037844E-002));
#40 = CARTESIAN_POINT('',(7.5E-002,4.330127018922E-002));
#41 = CARTESIAN_POINT('',(0.15,1.224646799147E-017));
#42 = CARTESIAN_POINT('',(7.5E-002,-4.330127018922E-002));
#43 = CARTESIAN_POINT('',(7.632783294298E-017,-8.660254037844E-002));
#44 = CARTESIAN_POINT('',(0.E+000,0.E+000));
#45 = ( GEOMETRIC_REPRESENTATION_CONTEXT(2) 
PARAMETRIC_REPRESENTATION_CONTEXT() REPRESENTATION_CONTEXT('2D SPACE',''
  ) );
#46 = PCURVE('',#47,#52);
#47 = CYLINDRICAL_SURFACE('',#48,5.E-002);
#48 = AXIS2_PLACEMENT_3D('',#49,#50,#51);
#49 = CARTESIAN_POINT('',(0.5,0.E+000,0.E+000));
#50 = DIRECTION('',(-1.,0.E+000,0.E+000));
#51 = DIRECTION('',(0.E+000,0.E+000,1.));
#52 = DEFINITIONAL_REPRESENTATION('',(#53),#56);
#53 = B_SPLINE_CURVE_WITH_KNOTS('',1,(#54,#55),.UNSPECIFIED.,.F.,.F.,(2,
    2),(0.E+000,6.28318530718),.PIECEWISE_BEZIER_KNOTS.);
#54 = CARTESIAN_POINT('',(0.E+000,-0.5));
#55 = CARTESIAN_POINT('',(6.28318530718,-0.5));
#56 = ( GEOMETRIC_REPRESENTATION_CONTEXT(2) 
PARAMETRIC_REPRESENTATION_CONTEXT() REPRESENTATION_CONTEXT('2D SPACE',''
  ) );
#57 = ADVANCED_FACE('',(#58),#47,.T.);
#58 = FACE_BOUND('',#59,.T.);
#59 = EDGE_LOOP('',(#60,#88,#108,#109));
#60 = ORIENTED_EDGE('',*,*,#61,.F.);
#61 = EDGE_CURVE('',#62,#62,#64,.T.);
#62 = VERTEX_POINT('',#63);
#63 = CARTESIAN_POINT('',(-5.689893001204E-014,0.E+000,5.E-002));
#64 = SURFACE_CURVE('',#65,(#70,#76),.PCURVE_S1.);
#65 = CIRCLE('',#66,5.E-002);
#66 = AXIS2_PLACEMENT_3D('',#67,#68,#69);
#67 = CARTESIAN_POINT('',(-5.689893001204E-014,0.E+000,0.E+000));
#68 = DIRECTION('',(-1.,0.E+000,0.E+000));
#69 = DIRECTION('',(0.E+000,0.E+000,1.));
#70 = PCURVE('',#47,#71);
#71 = DEFINITIONAL_REPRESENTATION('',(#72),#75);
#72 = B_SPLINE_CURVE_WITH_KNOTS('',1,(#73,#74),.UNSPECIFIED.,.F.,.F.,(2,
    2),(0.E+000,6.28318530718),.PIECEWISE_BEZIER_KNOTS.);
#73 = CARTESIAN_POINT('',(0.E+000,0.5));
#74 = CARTESIAN_POINT('',(6.28318530718,0.5));
#75 = ( GEOMETRIC_REPRESENTATION_CONTEXT(2) 
PARAMETRIC_REPRESENTATION_CONTEXT() REPRESENTATION_CONTEXT('2D SPACE',''
  ) );
#76 = PCURVE('',#77,#82);
#77 = PLANE('',#78);
#78 = AXIS2_PLACEMENT_3D('',#79,#80,#81);
#79 = CARTESIAN_POINT('',(0.E+000,0.E+000,0.E+000));
#80 = DIRECTION('',(-1.,0.E+000,0.E+000));
#81 = DIRECTION('',(0.E+000,0.E+000,1.));
#82 = DEFINITIONAL_REPRESENTATION('',(#83),#87);
#83 = CIRCLE('',#84,5.E-002);
#84 = AXIS2_PLACEMENT_2D('',#85,#86);
#85 = CARTESIAN_POINT('',(0.E+000,0.E+000));
#86 = DIRECTION('',(1.,0.E+000));
#87 = ( GEOMETRIC_REPRESENTATION_CONTEXT(2) 
PARAMETRIC_REPRESENTATION_CONTEXT() REPRESENTATION_CONTEXT('2D SPACE',''
  ) );
#88 = ORIENTED_EDGE('',*,*,#89,.F.);
#89 = EDGE_CURVE('',#22,#62,#90,.T.);
#90 = SEAM_CURVE('',#91,(#94,#101),.PCURVE_S1.);
#91 = B_SPLINE_CURVE_WITH_KNOTS('',1,(#92,#93),.UNSPECIFIED.,.F.,.F.,(2,
    2),(-0.5,0.5),.PIECEWISE_BEZIER_KNOTS.);
#92 = CARTESIAN_POINT('',(1.,-1.224646799147E-017,5.E-002));
#93 = CARTESIAN_POINT('',(-5.684341886081E-014,-1.224646799147E-017,
    5.E-002));
#94 = PCURVE('',#47,#95);
#95 = DEFINITIONAL_REPRESENTATION('',(#96),#100);
#96 = LINE('',#97,#98);
#97 = CARTESIAN_POINT('',(0.E+000,0.E+000));
#98 = VECTOR('',#99,1.);
#99 = DIRECTION('',(0.E+000,1.));
#100 = ( GEOMETRIC_REPRESENTATION_CONTEXT(2) 
PARAMETRIC_REPRESENTATION_CONTEXT() REPRESENTATION_CONTEXT('2D SPACE',''
  ) );
#101 = PCURVE('',#47,#102);
#102 = DEFINITIONAL_REPRESENTATION('',(#103),#107);
#103 = LINE('',#104,#105);
#104 = CARTESIAN_POINT('',(6.28318530718,0.E+000));
#105 = VECTOR('',#106,1.);
#106 = DIRECTION('',(0.E+000,1.));
#107 = ( GEOMETRIC_REPRESENTATION_CONTEXT(2) 
PARAMETRIC_REPRESENTATION_CONTEXT() REPRESENTATION_CONTEXT('2D SPACE',''
  ) );
#108 = ORIENTED_EDGE('',*,*,#21,.T.);
#109 = ORIENTED_EDGE('',*,*,#89,.T.);
#110 = ADVANCED_FACE('',(#111),#77,.T.);
#111 = FACE_BOUND('',#112,.T.);
#112 = EDGE_LOOP('',(#113));
#113 = ORIENTED_EDGE('',*,*,#61,.T.);
#114 = ( GEOMETRIC_REPRESENTATION_CONTEXT(3) 
GLOBAL_UNCERTAINTY_ASSIGNED_CONTEXT((#118)) GLOBAL_UNIT_ASSIGNED_CONTEXT
((#115,#116,#117)) REPRESENTATION_CONTEXT('Context #1',
  '3D Context with UNIT and UNCERTAINTY') );
#115 = ( LENGTH_UNIT() NAMED_UNIT(*) SI_UNIT(.MILLI.,.METRE.) );
#116 = ( NAMED_UNIT(*) PLANE_ANGLE_UNIT() SI_UNIT($,.RADIAN.) );
#117 = ( NAMED_UNIT(*) SI_UNIT($,.STERADIAN.) SOLID_ANGLE_UNIT() );
#118 = UNCERTAINTY_MEASURE_WITH_UNIT(LENGTH_MEASURE(1.E-005),#115,
  'distance_accuracy_value','confusion accuracy');
#119 = PRODUCT_TYPE('part',$,(#7));
#120 = MECHANICAL_DESIGN_GEOMETRIC_PRESENTATION_REPRESENTATION('',(#121)
  ,#114);
#121 = STYLED_ITEM('color',(#122),#15);
#122 = PRESENTATION_STYLE_ASSIGNMENT((#123,#129));
#123 = SURFACE_STYLE_USAGE(.BOTH.,#124);
#124 = SURFACE_SIDE_STYLE('',(#125));
#125 = SURFACE_STYLE_FILL_AREA(#126);
#126 = FILL_AREA_STYLE('',(#127));
#127 = FILL_AREA_STYLE_COLOUR('',#128);
#128 = COLOUR_RGB('',0.800000011921,0.800000011921,0.800000011921);
#129 = CURVE_STYLE('',#130,POSITIVE_LENGTH_MEASURE(0.1),#128);
#130 = DRAUGHTING_PRE_DEFINED_CURVE_FONT('continuous');
ENDSEC;
END-ISO-10303-21;
